Среда, 20.09.2017, 21:28
Главная Файлы Обратная связь
Приветствую Вас, Гость · ВХОД · RSS
Меню сайта
Форма входа
Категории раздела
Песни под гитару [187]
Оцениваем [23]
Программы [2]
Песни пользователей [49]
Поиск
Аккорды
Статистика

Онлайн всего: 1
Гостей: 1
Пользователей: 0
 Файлы
Главная » Файлы » Песни под гитару

Наркоман

[ Скачать с сервера ] [1.60Mb] 06.10.2008, 17:04
 D            Em               C                 D
За далекой рекой за высокой горой белый месяц висит
А на том берегу у крылатой реки звон гитары звенит
Там сидит паренек еще нет двадцати кучерявый пацан
Ни друзей ни подруг даже матушки нет ведь он наркоман
Пел он песни о том что у него девчонка была
Но не знала она что душа не чиста у ее пацана
Но годы брали своё к ней домой он пришел и признался в грехах
Он пощады просил на что вышел отец с арматурой в руках

Припев:
    Ты прости меня мама
    Ты прости меня Бог 
    За судьбу наркомана 
    За нечистую кровь
    В моей душе дьявол
    Он не хочет уйти
    Я прошу тебя небо
    Меня с собой забери 

Вспоминал он о том как целым двором ходили гулять
И в борьбе со врагом брат за братка мог всегда постоять
А ещё у меня сестрёнка была ей всего лишь 5 лет
И моя милая мать что никогда не скажет нет
Я не мог воровать не мог в глаза врать я сердцем любил
Я дворовой братвой и девчонкой своей всегда дорожил
Но годы брали своё я попался в капкан и в сердце вбит клин
Ни друзей ни подруг даже матушки нет лишь один героин

Припев.


Категория: Песни под гитару | Добавил: soundg
Просмотров: 28207 | Загрузок: 3507 | Рейтинг: 4.8/51 |
Всего комментариев: 12
22.11.2008 Спам
1. Alexander Sergeevich Savinyh (suineg)
Аккорды немного не в той тональночти подобраны..если у кого есть лучше дайте пожалуйста..ссылку smile

15.02.2009 Спам
2. Обойдемся без него :) (Maestrio)
Андрей аккорды подбираются под голос если тебе не подходят то транспонируй тут все прально подобрано вот тебе в других тональностях:
До мажор : C Dm B C
Ре мажор : D Em C D
Ми мажор : E Fism D E
Фа мажор : F Gm Dis F
Соль мажор : G Am F G
Ля мажор : A Hm G A
Си мажор : H Cism A H
smile

15.02.2009 Спам
3. Обойдемся без него :) (Maestrio)
Лично мне подходят фа соль и си:)

02.04.2009 Спам
4. Ильдус (gitara)
подскажите бой этой песни или перебор ???

04.04.2009 Спам
5. Ванька (Maestrio)
вот тебе перебор)

E|------0----------0---------2-----3-----2--------
H|-------0------1----1--------3-----3-----3--3---
G|--0-----0---0-------0---2----2-----2-----2----
D|------------------------0------------------------
A|-2--------3--------------------------------------
E|-----------------0--------------------------------

БОЙ:
1-удар большим пальцем вниз
2-удар указательным пальцем вниз
3-удар большим пальцем вверх
_-пауза
1_2_1313121


29.07.2009 Спам
6. Андрюха BrO (GooD)
класс песня ток скажите ваня как по твоей схеме понять как играть перебором я непойму)че за 2 0 0

04.10.2009 Спам
7. Костик Мешков (Дилетант)
андрей,это табулатура. цифра 0 означает, что струна должна не зажиматься. ОСТАЛЬНЫЕ Цифры-это номера ладов.если идет подряд некоторое кол-во символов, то это означает, сколько раз нужно дернуть струну

16.04.2010 Спам
8. Паша HawkyIIIa (HawkyIIIa)
мне кажетса шо етот пребор луче подходит!!
E|------0----------0---------2-----3-----2--------
H|----0--0------1----1-----------------------3---
G|--0------0-----------0---2----2-----2-----2----
D|-----------------------0--------------------0----
A|-2--------3--------------------------------------
E|--------------------------------------------------

29.07.2010 Спам
9. Edik (Edik)
напишите пожалуйста цифрами какие струны дёргать...
например там Б3231323

06.01.2011 Спам
10. Whirewind whirewind (whirewind5918)
E|------- 0-------------0-------------2-----3-----2-----2----------
H|----0-----0--------1-----1------3-----3------3----3------3-----
G|--0--0--0--0----0--0--0-0----2-2---2----2-----2------2-------
D|------------------------------0-----------------------------------
A|-2--------------3-------------------------------------------------
E|-------------------------------------------------------------------

вот моя версия перебора мне кажется она самая подходящая cool


27.05.2011 Спам
11. ЖенеК КашкароВ (KiLLeeeR)
Вот аккорды, на мой взгляд самые подходящие ( по крайней мере для куплетов, а припев я так и не смог сыграть )

Em C

D D+

(D+ это аккорд D с мизинцем на 3 ладу, после того как сыгран аккорд D нужно повторить его только перебором 1-323 (один раз с мизинцем на 3 ладу и сразу потом так же 1-323 только без него и потом снова Em и так далее)

в песне использую Лунный перебор (8-ка)

Б-3231323

к каждому аккорду он свой, т.е так,

Em 6-323-1-323
C 5-323-1-323
D 4-323-1-323
D+ 1-323

19.04.2012 Спам
12. Sergey Shuv (Shuv)
Люди добрые,объясните пожалуйста, как читать табулатуры (так они вроде называются)

Добавлять комментарии могут только зарегистрированные пользователи.
[ Регистрация | Вход ]
Copyright gsong.ru © 2008-2017