Воскресенье, 24.09.2017, 02:33
Главная Файлы Обратная связь
Приветствую Вас, Гость · ВХОД · RSS
Меню сайта
Форма входа
Категории раздела
Песни под гитару [187]
Оцениваем [23]
Программы [2]
Песни пользователей [49]
Поиск
Аккорды
Статистика

Онлайн всего: 1
Гостей: 1
Пользователей: 0
 Файлы
Главная » Файлы » Песни под гитару

Я улетаю

[ Скачать с сервера ] [3.69Mb] 21.10.2009, 17:37
F#m       D             Hm C#7             F#m
Я уже не буду больше летать на крыльях любви,
Я перестану по ночам спать, в том виновата ты.
Я постараюсь тебя забыть, но это самообман,
Я только что пытался память залить, в голове стоит пьяный дурман.

Припев:
    И снова выпивка не лезет в рот, и снова я забиваю косяк,
    Да в этой речке существует брод, но этот брод не для меня.
    Я рассыпаю перед собой план, я наливаю еще 200 грамм,
    Я выпиваю, курю и лечу, куда лечу, не знаю и сам...

Ты перестала ко мне приходить, ты стала избегать со мной встреч,
Ты не желаешь мне звонить...
Зато за ним ты бежишь как дитя, когда идет он под руку с другой,
А мне почти плевать на тебя, я развернусь и пойду домой.

Припев.

Да, алкоголик я и наркоман, уже не раз игла касалась руки,
Хотя, посмотришь правде в глаза, я никогда ведь не был таким.
Успокоение искала душа, нашла легкий, но губительный путь,
Теперь игла, водка и анаша меня погубят когда-нибудь.

Припев.

    И снова сердце пробьет игла, и снова водка зальется в грудь,
    И, умирая, кричит душа, мешая воплями жизнь свернуть.
    Пусть с каждым днем все темнее в глазах, и замирает сердца стук,
    И с глаз срывается последняя слеза, и выпадает гитара из рук.


Категория: Песни под гитару | Добавил: soundg
Просмотров: 23613 | Загрузок: 3632 | Рейтинг: 4.4/39 |
Всего комментариев: 14
22.10.2009 Спам
1. eugen zwetzich (eugen77)
Песня Класс Спасибо

23.10.2009 Спам
2. Александр Селиванов (WHITER)
Да песня супер...
Подскажите не сооброжу с перебором тут 4321123 и 4323132

27.10.2009 Спам
Согласна, только у нас она почему-то всегда называлась "Я рассыпаю перед собой план". А перебор на этой записи кажись 4323132. Я слышала другой вариант, там кстати не было септаккорда

28.10.2009 Спам
4. Александр Селиванов (WHITER)
да перебор я тут понять вообще не могу щас он мне кажеться не полным.
Люди у кого слух есть а не то что у меня скажите плиз что за перебер)

29.10.2009 Спам
По-моему здесь стандартный перебор 8-ка, просто не очень хорошо слышно и кажется, что играется вообще только 4212

30.10.2009 Спам
6. Александр Селиванов (WHITER)
да то же кажеться а вот на деле не очень и вообще он там с 5 начинает.

20.02.2010 Спам
7. дмитрий Суриков (Skybi-DY)
Перебор здесь 8-ка!!!! applause applause applause applause молодец оч хорошая песня!!!! только немного на гитпре по громче играть надо!!!

21.02.2010 Спам
8. Александр (Chastener)
Отличная песня wink

22.02.2010 Спам
9. Игорь Крстич (Krstic)
пребор Б-3-2-3-1

08.03.2010 Спам
10. (AnToxa)
а с боем кто нибудь поможет?

03.04.2010 Спам
11. Слава (masafaka)
в меня чучуть не так может лучче cool

Вступление:
Am F Dm E
e|----0-----0-----0---1-----1-----1---1-----1-----1---0-----0-----0-|
H|------1-----1---------1-----1---------3-----3---------0-----0-----|
G|--------2-----2---------2-----2---------2-----2---------1-----1---|
D|------------------------------------------------------------------|
A|--0---------------3---------------0---------------2---------------|
E|------------------------------------------------------------------|

Am F Dm E
e|----0-----0-----0---1-----1-----1---1---1-3-1-0-----0-----0-----0-| \
H|------1-----1---------1-----1---------3---------3-----0-----0-----| \
G|--------2-----2---------2-----2-------------------------1-----1---| \
D|------------------------------------------------------------------| / 2 раза
A|--0---------------3---------------0---------------2---------------| /
E|------------------------------------------------------------------| /

Куплет:
Am F Dm E
e|----0-----0-----0---1-----1-----1---1---1-3-1-0-----0-----0-----0-|
H|------1-----1---------1-----1---------3---------3-----0-----0-----|
G|--------2-----2---------2-----2-------------------------1-----1---|
D|------------------------------------------------------------------|
A|--0---------------3---------------0---------------2---------------|
E|------------------------------------------------------------------|

Am F Dm E Am
Я уже не буду больше летать на крыльях любви.
F Dm E Am
Я перестану по ночам спать, в том виновата ты.
F Dm E Am
Я постараюсь тебя забыть, но это само обман.
F Dm
Я только что пытался память залить,
E Am (здесь начинается бой)
в голове стоит пьяный дурман

F Dm E Am
И снова выпивка не лезет в рот и снова я забиваю косяк
F Dm E Am
Да в этой речке существует брод, но этот брод не для меня
F Dm E Am
Я рассыпаю перед собой план, я наливаю еще 200 грамм
F Dm E Am
Я выпиваю, курю и лечу, куда лечу, не знаю и сам...

Am F Dm E Am
Ты перестала ко мне приходить, ты стала избегать со мной встреч
F Dm E Am
Ты не желаешь мне звонить...
F Dm E Am
За то за ним ты бежишь как дитя, когда идет он под руку с другой
F Dm E Am
А мне почти плевать на тебя я развернусь и пойду домой

Припев

Am F Dm E Am
Да алкоголик я и наркоман, уже не раз игла касалась руки
F Dm E Am
Хотя посмотрим правде в глаза: я никогда ведь не был таким.
F Dm E Am
Успокоения искала душа, нашла легкий ноглубительный путь
F Dm E Am
Теперь игла, водка и анаша меня загубят когда-нибудь...

Припев

И снова сердце пробьет игла, и снова водка зальется в грудь
И умирая, кричала душа, пытаясь воплями жизнь вернуть
Но с каждым днем все, темнея в глазах и замерзает сердца стук.
И вот срывается последняя слеза и выпадает гитара из рук...


21.05.2010 Спам
12. Эдик Ерошов (Edvin)
помогите кто нить
напишите плиз какие струны под какой аккорд в переборе

24.09.2010 Спам
13. DIMA (Dimitrio)
при аккорде Am(ля минор - 5 струна) F-по моему 4 струна, Dm - струна, Е- 6 струна и опять Am-5 струна.
неуверенность на счет фа мажора только..

08.10.2010 Спам
14. Алексей Стеценко (LEX)
Для Am F E7:
-----------------*---------
----------*---*----*----*-
------------*---------*----
----------------------------
-Бас-----------------------
----------------------------

Для Dm:
---------1--3--1-------
------3-----------3----
----2----------------2-
-0----------------------
------------------------
-------- ----------------

Am F Dm E7
Я уже не буду больше летать на крыльях любви
Я перестану по ночам спать в том виновата ты
Я постараюсь тебя забыть, но это самообман
Я толь что пытался память залить в голове стоит пьяный

Припев

И снова выпивка не лезет в рот
И снова я забиваю косяк
Да в этой речке существует брод
Но этот брод не для меня
Я рассыпаю перед собой план
Я наливаю еще 200 грамм
Я выпиваю, курю и лечу
Куда лечу не знаю и сам

Ты перестала ко мне приходить
Ты стала избегать со мной встреч
Ты не желаешь мне звонить…
Зато за ним ты бежишь как дитя
Когда идет он под руку с другой
А мне почти плевать на тебя
Я развернусь и пойду домой

Припев

Да, алкоголик я и наркоман
Уже ни раз игла касалась руки
Хотя посмотрим правде в глаза
Я никогда ведь не был таким
Успокоенье искала душа
Нашла легкий и губительный путь
Теперь игла, водка и анаша меня погубят когда-нибудь

Припев
И снова сердце пробьет игла
И снова водка зальется в грудь
И умирая кричит душа
Пытаясь воплями жизнь вернуть
Но с каждым днем все мутнее глаза
И замирает сердца стук
И с глаз срывается последняя слеза
И выпадает гитара из рук

Вступление:
E||-------------------------|-------------------------|
B||-------------------------|-------------------------|
G||-------------------------|-------------------------|
D||-------------3--2--0-----|-------------------------|
A||--0-------0-----------0--|-------------3--2--0-----|
E||-------------------------|--1-------1-----------1--|

-------------------------|-------------------------||
-------------------------|-------------------------||
-------------------------|-------------------------||
--0-------0--2--3--5--3--|--2-------2--3--0--------||
-------------------------|-------------------3--2--||
-------------------------|-------------------------||

Это и есть соло перед последними 2 куплетами:
E||--8-----------7--8--10--|-------7----8--------|--7--8--5--------------|
B||------------------------|---------------------|-----------------------|
G||------------------------|---------------------|-----------------------|
D||------------------------|---------------------|-----------------------|
A||------------------------|---------------------|-----------------------|
E||------------------------|---------------------|-----------------------|


--12----12--12----10--8-----|--7----------------|--8--------12----10----|
----------------------------|-------------------|-----------------------|
----------------------------|-------------------|-----------------------|
----------------------------|-------------------|-----------------------|
----------------------------|-------------------|-----------------------|
----------------------------|-------------------|-----------------------|


--8----12----10--13--12----|--10----8--------7----||
---------------------------|----------------------||
---------------------------|----------------------||
---------------------------|----------------------||
---------------------------|----------------------||
---------------------------|----------------------||


Добавлять комментарии могут только зарегистрированные пользователи.
[ Регистрация | Вход ]
Copyright gsong.ru © 2008-2017